$2,000 FREE on your first deposit*Please note: this bonus offer is for members of the VIP player's club only and it's free to joinJust a click to Join!
Exclusive VIPSpecial offer

🎰 The Game tab with lyrics by Motorhead - Easy chords and tabs for guitar

Apologise, but, game tab motorhead the are
  • 97% payout rates and higher
  • Players welcome!
  • Licensed and certified online casino
  • 100% safe and secure
  • Exclusive member's-only bonus

The game tab motorhead

Sign-up for real money play!Open Account and Start Playing for Real

Free play here on endless game variations of the Wheel of Fortune slots

  • Spectacular wheel of wealthSpectacular wheel of wealth
  • Wheel of Fortune HollywoodWheel of Fortune Hollywood
  • Wheel of WealthWheel of Wealth
  • Wheel Of Fortune Triple Extreme SpinWheel Of Fortune Triple Extreme Spin
  • Wheel of CashWheel of Cash
  • Fortune CookieFortune Cookie

Play slots for real money

  1. Start playingClaim your free deposit bonus cash and start winning today!
  2. Open accountComplete easy registration at a secure online casino website.
  3. Make depositDeposit money using any of your preferred deposit methods.
Register with the Casino

VIP Players Club

Join the VIP club to access members-only benefits.Join the club to receive:
  • Slot tournaments
  • Loyalty rewards
  • Exclusive bonuses
  • Monthly drawings
  • Unlimited free play
Join the Club!

Chords for Motörhead - Heroes. Play along with guitar, ukulele, or piano with interactive chords and diagrams. Includes transpose, capo hints, changing speed and much more. Click to Play!

Motorhead Tabs & Chords, Tabulaturi si Acorduri de chitara Trupa britanica Motorhead s-a infiintat in anul 1975, in Londra. Fondatorul trupei este Lemmy, pe numele sau adevarat Ian Kilmister, solistul si basistul formatiei. Click to Play!

Install the game - Full Installation. Apply the Motorhead v3.1 [US] Geforce HUD Fix Update. Extract the CRACK31US.EXE Patch from the File Archive to the game directory. Execute the Patch to remove the CD-Check. Play the Game! Click to Play!

Lyrics to "The Game" song by Motorhead: It's time to play the game... Time to play the game! It's all about the game, and how you play it.... Click to Play!


The Game Tab by Motorhead - Rythm 2 - Distortion Guitar | Songsterr Tabs with Rhythm


The Game by Motorhead Bass Tab Different Versions Chords, Tab, Tabs. Key Variations. Play Advices. Chords Diagrams. Guitar Tabs Universe
Motorhead Tabs & Chords, Tabulaturi si Acorduri de chitara Trupa britanica Motorhead s-a infiintat in anul 1975, in Londra. Fondatorul trupei este Lemmy, pe numele sau adevarat Ian Kilmister, solistul si basistul formatiei.
Choose and determine which version of Ramones chords and tabs by Motorhead you can play. Last updated on 09.08.2011


Motörhead "Heroes" (David Bowie Cover)


THE GAME BASS by Motörhead @ money-games.site The game tab motorhead


Install the game - Full Installation. Apply the Motorhead v3.1 [US] Geforce HUD Fix Update. Extract the CRACK31US.EXE Patch from the File Archive to the game directory. Execute the Patch to remove the CD-Check. Play the Game!
Chords for Motörhead "Heroes" (David Bowie Cover). Play along with guitar, ukulele, or piano with interactive chords and diagrams. Includes transpose, capo hints, changing speed and much more.
Apprenez the game de motorhead à la guitare grâce à ce replay de cours de guitare en direct. Nous vous proposons trois vues ainsi que la tab, tablature ou partition synchronisée dans la vidéo.



THE GAME BASS by Motörhead @ money-games.site



Motorhead - The Game (Triple H Theme Song - WWF) Tuning - Eb-Ab-Db-Gb-Bb-Eb tabbed by Emilio ([email protected]) (12) - harmonic This song is pretty easy. These are all the rhythm riffs. Figure out the timing and the order on your own.
Choose and determine which version of The Game chords and tabs by Motorhead you can play. Last updated on 05.26.2015

You may only use this file for private study, scholarship, or research.
E --------------------------------------- --------------------------------------- --------------------------------------- --------8b8.
E --------------------------------------- --------------------------------------- --------------------------------------- --------8b8.
E --------------------------------------- --------------------------------------- --------------------------------------- --------8b8.
E -------------------------------------------------------------------- -------------------------------------------------------------------- -------------------------------------------------------------------- --------8b8.
E ---------------------------------------- o--------------------------------------- ---------------------------------------- ---------8b8.
E ------------------------------------------ -----------------------------------------o ------------------------------------------ ----------8b8.
W ------------------ -------------- ------------------ -------------- -xsx-------------- -------------- go here -------------- ------------------ -------------- ------------------ -------------- Outro 1.
E ---------------------------------------- ---------------------------------------- o--------------------------------------- ---------------------------------------o ---------------------------------------- the game tab motorhead ---------8b8.
E --------------------------------------------------------------------------- --------------------------------------------------------------------------- --------------------------------------------------------------------------- ---------8b8.
E ---------------------------------------- o--------------------------------------- ---------------------------------------- ---------8b8.
E 4x ---------------------------------------- ---------------------------------------o ---------------------------------------- --------8b8.
E --------------------------------------- --------------------------------------- --------------------------------------- --------8b8.
E --------------------------------------- --------------------------------------- --------------------------------------- --------8b8.
E --------------------------------------- --------------------------------------- the game tab motorhead --------8b8.
E ------------------------------------------------------------- ------------------------------------------------------------- ------------------------------------------------------------- --------8b8.
E ---------------------------------------------- ---------------------------------------------- ---------------------------------------------- --------8b8.
E ------------------------------------------------- ------------------------------------------------- ------------------------------------------------- -----------8b8.
E ----------------------------------------------------- ----------------------------------------------------- ----------------------------------------------------- -----------8b8.
E ---------------------------------------------------------- ---------------------------------------------------------- ---------------------------------------------------------- -----------------8b8.
E -------------------------------------------------------- -------------------------------------------------------- -------------------------------------------------------- ---------8b8.
https://money-games.site/the-game/secrets-of-the-game-skyrim-chest.html ---------------------------------------------------------------------------- ---------------------------------------------------------------------------- ---------------------------------------------------------------------------- -----------------------8b8.
E --------------------------------------- --------------------------------------- --------------------------------------- --------8b8.
Duration letters with no fret number below them represent rests.
Multi- bar rests are the game tab motorhead in the form Wxn, where n is the number of bars to rest for.


Motörhead Tabs - Ace Of Spades


71 72 73 74 75

The Game" was released on both the American version of the Hammered and WWF The Music, Vol. 5 albums, and "Line in the Sand" was released on the WWE ThemeAddict: The Music, Vol. 6 album. Motörhead have since performed a new entrance track for Triple H, entitled "King of Kings", which made its debut at WrestleMania 22.


COMMENTS:


30.06.2019 in 07:39 Negal:

Да... Нам ешо далеко до такого...



30.06.2019 in 16:28 Shakora:

Это маловероятно.



30.06.2019 in 12:55 Faenos:

По моему мнению Вы допускаете ошибку. Давайте обсудим.



30.06.2019 in 10:10 Gosar:

аффтору зачет. СПС




Total 4 comments.